Cracker Guitar Tabs


Forever tabs


Guarded by Monkeys


Tabbed by Ryan White
rwhite@freakscene.net


E------------------------8--8--8--10------------

B-10--9--10---9--------8--8--8--8-------------

G--9--8---9----8--------9--9--9--9-------------

D-------------------------------------------------



E------------------------10--10--10--12-------

B-10--9--10---9-------10--10--10--10-------

G--9--8---9----8-------11--11--11--11-------

D-------------------------------------------------



I think the chords these are based on are Am, C and D

After fiddling around a bit, the Am part may be sliding from the 5th to the
4th frets on the E & B strings. Actually, it sounds okay using only those
two for the whole riff.



Hereís the other part

E------------------5--------------------------------------------------

B---------5-6-5-----8-6-5-6-5-6--------5-6-5-----5-6-5-6--------

G---4-5------------------------------4-5---------7------------------

D---------------------------------------------------------------------



Iím sure thereís more to it, but itís a start.


| Front Page |
| Tour Dates | Concert Reviews |
| Pictures | Gear | Tabs |
| Related Links | Related Bands |
| Trading Page |